Friday, 1 December 2017

Harivarasanam Viswamohanam

guitar tabs for harivarasanam

Harivarasanam Viswamohanam
B ------------------------------------------8---------------- B
G -----5--7--7--7--7--9---------------9-----9--7--7------ G

Harithatheswaram Aradhyapadukam
G -----5--7--9--7--9--7-5-----------2-2--9--7-7—7---- G

Arivi Mardhanam Nithya Narthanam
B --------8-8-8--8--8-8--------------------8--8—8---8--- B
G -----9-------------------9—7----------9------------------ G

Hariharathmajam Devamasrayee
E ------------------8----------------------------------------- E
B ------8--10--10-----10--8------------8------------------- B
G --9--------------------------9------------9—7—7---7---- G

Saranamayyappa Swami Saranam Ayyappa
B -----------------------------------------8-----8------------- B
G ----5--7--7-7---7-------------9--9------9-----9-7—7-7-- G

Saranamayyappa Swami Saranamayyappa
B ----10--8--10--8-------------------------------------------- B
G -------------------9--9---------9—9-----5--7-9--9-7-7--- G

No comments:

Post a Comment